Iri Thalunu Wala (Tabs) Chords

by Amarasiri Peiris
Beat: 4/4
Key: Ebm
Contributor: W. Kevin Prout - (View All Contributions)
Views: 1316
Login / Register to create play lists
Dear visitors, please note that some of the Youtube channels
that we index are currently closed, therefore will not be available for playback.
Select font size:
[Intro]
 | Asus|  -  |  -  |  -  |     Iri thalunu wala udu wiyan yatin
 |  Dm |  Am |  F  |  Dm |     Mudu thara athirillee yamu yamu yamu
 |  Dm |  Am |  F  |  Dm |     Api awida yamu premiye
 |  -  |  -  |  Bb |  -  |     Siw desin hama ena mudu wu ratha raga
 |  C  |  -  |  Am |  -  |     Senaga rawataminee
 |  Dm |  -  |  -  |  -  |
 |  -  |  -  |

                               Wata pite siruwata widuli ass sinasewee
                               Norawatee yanna yamu
[Chorus]                      [Kaha iren ethera weela]//
 |  Dm |  -  |  -  |  -  |
 |  F  |  -  |  Gm |  -  |
 |  Bb |  -  |  F  |  Am |     Riya pelee kirunathin
 |  Dm |  -  |  Gm |  -  |     Rajawarun atha wanawee
 |  Dm |  -  |  Bb |  C  |     Bima balan yanna yamu
 |  Dm |  -  |                [Kaha irath rali wateela]//

 
 [Verse]
 |  F  |  Dm |  -  |  -  |
 |  Bb |  -  |  Dm |  -  |
 |  Gm |  -  | Asus|  -  |
 |  C  |  -  |  Dm |  -  |
 |  C  |  -  |  Dm |  -  |
 |  C  |  -  |  Dm |  -  |
 |  -  |  -  |  
 

e|---*5----5-----------------------------------------------------------------------|
B|-------8---6-8--*5-6----5----6---6p5-----6---------------------------------------|
G|-*7------------------*7--------------*7------------------------------------------|
D|--------------------------*7-----------------------------------------------------|
A|---------------------------------------------------------------------------------|
E|---------------------------------------------------------------------------------|


  Dist: Guitar
e|----------8\---------8-10-11-10/-------------------8--10-10/17-------------------|
B|-------10---------10----------------6/8-8--10--10--------------------------------|
G|-7/10----------10----------------------------------------------------------------|
D|---------------------------------------------------------------------------------|
A|---------------------------------------------------------------------------------|
E|---------------------------------------------------------------------------------|


e|---------------------------------------------------------------------------------|
B|-10--8--10--8----8---8-10---10--8--10--8-----------------------------------------|
G|---------------10--10---------------------10-------------------------------------|
D|---------------------------------------------------------------------------------|
A|---------------------------------------------------------------------------------|
E|---------------------------------------------------------------------------------|

--|.|--------------------------------|.|--
Here are the letters/symbols most often used at tablature:
      h - hammer on 
      p - pull off 
      b - bend string up
      r - release bend
      / - slide up
      \ - slide down
      v - vibrato (sometimes written as ~)
      t - right hand tap
      x - play 'note' with heavy damping
      * - Palm Mute note
--|.|--------------------------------|.|--

Feel free to edit it guys, I'm sure there might be thousands errors. 
And don't forget to feed us back with what you got... Kevin

--|.|--------------------------------|.|--
Chords arangement by: 		Surain D
Published\aranged by:		Kevin Prout	
kevprout@gmail.com

DO NOT COPY ANY CONTENT FROM THIS WEBSITE!! Read more

please share with your friends :)
Your play lists will be visible here once you (login/register)

COMMENTS (0)

Add a comment / Correction to this song

Speed: 60
Artists by Index or
A
B
C
D
E
F
G
H
I
J
K
L
M
N
O
P
Q
R
S
T
U
V
W
X
Y
Z
©2010 to present chordslanka.lk all rights reserved. Administrator - Shalin Jayasuriya +94712183906