Mage Punchi Rosa Male 2 (Tabs) Chords

by Amarasiri Peiris
Beat: 3/4
Key: Dm
Contributor: W. Kevin Prout - (View All Contributions)
Views: 1369
Login / Register to create play lists
Dear visitors, please note that some of the Youtube channels
that we index are currently closed, therefore will not be available for playback.
Select font size:
Artist  - Amarasiri Pieris
Title   - Mage Punchi Rosa Male
Chord   - D Minor
TIming  - 3/4

[Intro]

 |Asus4|  -  |  -  |  -  |        Mage punchi rosa malee
 |Dsus4|  Bm7|  C  |  Am |        Mamai numbee wiyapath babara
 |  Dm |  -  |  Am |  -  |        Numba heenenwath nodakina kumara //
 |  C  |  -  |  Dm |  -  |
 |Asus4|  -  |  -  |  -  |

[Chorus]

 |  Dm |  Am |  C  |  Dm |        Kaluwara raa sadak wage
 |  -  |  -  |  F  |  Am |        Ahase numba innawanam asai mama
 |  C  |  -  |  -  |  -  |        Noki kawiya numbata kiyanna
 |  -  |  -  |  Am |  -  |        Tharahak nee numba basa yanna
 |  -  |Dsus4|  Am |  C  |
 |  C  |  Am |  Dm |  -  |

[Verse]

 |  Am |  -  |  C  |  Dm |        Mage punchi nawathanee
 |  -  |  Gm |  Eb |  Dm |        Awidin sari saranawanam
 |  Gm |  -  |  C  |  F  |        Asai mama kaulu piyan
 |  Gm |  F  |  C  |  -  |        Arala thiyanna
 |  Am |  -  |  C  |  -  |        Tharahak nee nawith inna...
 |Asus4|  -  |  -  |  -  |

Lead (INTRO)

   Asus4 (4 Times)
e|----------5-5--------------------------------------------------------------------|
B|------5-5------------------------------------------------------------------------|
G|----7----------------------------------------------------------------------------|
D|--7------------------------------------------------------------------------------|
A|---------------------------------------------------------------------------------|
E|---------------------------------------------------------------------------------|

   Dsus4		Dm7		  C		  Am	  
e|-------------10-10---------------------------------------------------------------|
B|-------10-10---------------10-10-13-13-------8-8-11-11----------5-5--------------|
G|----12------------------10-----------------9--------------5-7-7------------------|
D|-12------------------12-----------------10--------------7------------------------|
A|---------------------------------------------------------------------------------|
E|---------------------------------------------------------------------------------|

   Asus4 (4 Times)
e|----------5-5--------------------------------------------------------------------|
B|------5-5------------------------------------------------------------------------|
G|----7----------------------------------------------------------------------------|
D|--7------------------------------------------------------------------------------|
A|---------------------------------------------------------------------------------|
E|---------------------------------------------------------------------------------|

--|.|--------------------------------|.|--

Here are the letters/symbols most often used at tablature:
      h - hammer on 
      p - pull off 
      b - bend string up
      r - release bend
      / - slide up
      \ - slide down
      v - vibrato (sometimes written as ~)
      t - right hand tap
      x - play 'note' with heavy damping
      
--|.|--------------------------------|.|--

Feel free to edit it guys, I'm sure there might be thousands errors. 
And don't forget to feed us back with what you got... Kevin

--|.|--------------------------------|.|--

Chords arangement by: Surain D
Published\aranged by: Kevin Prout	
kevprout@gmail.com

DO NOT COPY ANY CONTENT FROM THIS WEBSITE!! Read more

please share with your friends :)
Your play lists will be visible here once you (login/register)

COMMENTS (0)

Add a comment / Correction to this song

Speed: 60
Artists by Index or
A
B
C
D
E
F
G
H
I
J
K
L
M
N
O
P
Q
R
S
T
U
V
W
X
Y
Z
©2010 to present chordslanka.lk all rights reserved. Administrator - Shalin Jayasuriya +94712183906