Chakithaya (Tabs) Chords

by Nemesis
Beat:
Key: Eminor (half step down)
Contributor: B.L.Gayal Kasunjith - (View All Contributions)
Views: 1617
Login / Register to create play lists
Dear visitors, please note that some of the Youtube channels
that we index are currently closed, therefore will not be available for playback.
Select font size:
-------------------------------------------------------------------------------
                             Chakithaya - Nemsis
-------------------------------------------------------------------------------
Tabbed by:B.L.Gayal Kasunjith
E-mail:gkasunjith@gmail.com

Tuning:D# G# C# F# A# D# 

Intro Rhythm    

     E5            D5 C5 D5 B5 C5 B5 A5 G5  E5

e|---------------------------------------------------------------------------|
B|---------------- -----------------(2)--------------------------------------|
G|-----------------7--5--7--4--5--4--2--5------------------------------------|
D|----2---------  -7--5--7--4--5--4--2--5---2--------------------------------|
A|----2------------5--3--5--2--3--2--0--3---2--------------------------------| X2
E|----0------------------------------------0---------------------------------|


  Verse 1 :Same Chords  


  Seyawak wath haada thula ma nowana lese...... 
  
    E5            D5 C5 D5 B5 C5 B5 A5 G5  E5

e|---------------------------------------------------------------------------|
B|---------------- -----------------(2)--------------------------------------|
G|-----------------7--5--7--4--5--4--2--5------------------------------------|
D|----2---------  -7--5--7--4--5--4--2--5---2--------------------------------|
A|----2------------5--3--5--2--3--2--0--3---2--------------------------------| X4
E|----0------------------------------------0---------------------------------|

   Pre Chorus:
    
   Chakithayawath nathida newathune..

   Cmaj                      D5                      E5

e|------------0---------|--------------0--------|-------------0--0--3--2--0--|
B|---------------1------|---------3--------3----|--------------0--0--0--0----|
G|---------0--------0---|-------2------------2--|----------------------------|
D|------2---------------|-----0-----------------|----2-----------------------|
A|---3------------------|-----------------------|----2-----------------------| 
E|----------------------|-----------------------|---(0)----------------------|

e|------------0---------|--------------0--------|----------------------------|
B|---------------1------|---------3--------3----|----------------------------|
G|---------0--------0---|-------2------------2--|----------------------------|
D|------2---------------|-----0-----------------|-----2-2-2-2----------------|
A|---3------------------|-----------------------|-----2-2-2-2----------------|
E|----------------------|-----------------------|-----0-0-0-0----------------|


   Chorus:
    
   Em         Am       Dmaj               Cmaj     Dmaj     Bmaj
   Hada devuna kadule giluna    --  nethu niwana adure ethuna

             Em     Am      Dmaj            Cmaj     D       Em
   Whooh! niwuna loke dewuna    --   oba nimewu sihine biduna 
  
  

 
    Guitar Solo:


e|--------------------------------|------------------------------------------|
B|---------------------11b\-------|---10/12b\12-10--10-----------------------|
G|--------12------12--------------|---------------12---11--------------------|
D|----14------14------------14----|------------------------------------------|
A|--------------------------------|------------------------------------------|
E|--------------------------------|------------------------------------------|

e|-----------------------10\12-10-------|--11\14--12-------------------------|
B|----10\12---13---15-------------13-13-|------------15-15--13-13-13h1512----|
G|---------12---12----------------------|------------------------------------|
D|--------------------------------------|------------------------------------|
A|--------------------------------------|------------------------------------|
E|--------------------------------------|------------------------------------|


  this part hard to write.try this one for ears.listen carefully.

e|---------------------------------------------------------------------------------|
B|----12h13p12-X3-12-15-13-12----4times----then slide---12h15p12--X3-13--17-15-13--|
G|---------------------------------------------------------------------------------|
D|---------------------------------------------------------------------------------|
A|---------------------------------------------------------------------------------|
E|---------------------------------------------------------------------------------|

e|--------------------------------------|------------------------------------|
B|--------------10----------------------|--------10\12-10--------------------|
G|----12-11-12----12-11-9---------------|---12-11--------12-11-9-------------|
D|--------------------------------------|------------------------------------|
A|--------------------------------------|------------------------------------|
E|--------------------------------------|------------------------------------|


************************************

| /   slide up
| \   slide down
| h   hammer-on
| p   pull-off
| ~   vibrato
| +   harmonic
| x   Mute note
| b   Bend
| pb  Pre-bend
| br  Bend release
| pbr Pre-bend release
| brb Bend release bend

************************************
-------------------------------------------------------------------------------
                             Chakithaya - Nemsis
-------------------------------------------------------------------------------
Tabbed by:B.L.Gayal Kasunjith
E-mail:gkasunjith@gmail.com

Tuning:D# G# C# F# A# D# 

Intro Rhythm    

     E5            D5 C5 D5 B5 C5 B5 A5 G5  E5

e|---------------------------------------------------------------------------|
B|---------------- -----------------(2)--------------------------------------|
G|-----------------7--5--7--4--5--4--2--5------------------------------------|
D|----2---------  -7--5--7--4--5--4--2--5---2--------------------------------|
A|----2------------5--3--5--2--3--2--0--3---2--------------------------------| X2
E|----0------------------------------------0---------------------------------|


  Verse 1 :Same Chords  


  Seyawak wath haada thula ma nowana lese...... 
  
    E5            D5 C5 D5 B5 C5 B5 A5 G5  E5

e|---------------------------------------------------------------------------|
B|---------------- -----------------(2)--------------------------------------|
G|-----------------7--5--7--4--5--4--2--5------------------------------------|
D|----2---------  -7--5--7--4--5--4--2--5---2--------------------------------|
A|----2------------5--3--5--2--3--2--0--3---2--------------------------------| X4
E|----0------------------------------------0---------------------------------|

   Pre Chorus:
    
   Chakithayawath nathida newathune..

   Cmaj                      D5                      E5

e|------------0---------|--------------0--------|-------------0--0--3--2--0--|
B|---------------1------|---------3--------3----|--------------0--0--0--0----|
G|---------0--------0---|-------2------------2--|----------------------------|
D|------2---------------|-----0-----------------|----2-----------------------|
A|---3------------------|-----------------------|----2-----------------------| 
E|----------------------|-----------------------|---(0)----------------------|

e|------------0---------|--------------0--------|----------------------------|
B|---------------1------|---------3--------3----|----------------------------|
G|---------0--------0---|-------2------------2--|----------------------------|
D|------2---------------|-----0-----------------|-----2-2-2-2----------------|
A|---3------------------|-----------------------|-----2-2-2-2----------------|
E|----------------------|-----------------------|-----0-0-0-0----------------|


   Chorus:
    
   Em         Am       Dmaj               Cmaj     Dmaj     Bmaj
   Hada devuna kadule giluna    --  nethu niwana adure ethuna

             Em     Am      Dmaj            Cmaj     D       Em
   Whooh! niwuna loke dewuna    --   oba nimewu sihine biduna 
  
  

 
    Guitar Solo:


e|--------------------------------|------------------------------------------|
B|---------------------11b\-------|---10/12b\12-10--10-----------------------|
G|--------12------12--------------|---------------12---11--------------------|
D|----14------14------------14----|------------------------------------------|
A|--------------------------------|------------------------------------------|
E|--------------------------------|------------------------------------------|

e|-----------------------10\12-10-------|--11\14--12-------------------------|
B|----10\12---13---15-------------13-13-|------------15-15--13-13-13h1512----|
G|---------12---12----------------------|------------------------------------|
D|--------------------------------------|------------------------------------|
A|--------------------------------------|------------------------------------|
E|--------------------------------------|------------------------------------|


  this part hard to write.try this one for ears.listen carefully.

e|---------------------------------------------------------------------------------|
B|----12h13p12-X3-12-15-13-12----4times----then slide---12h15p12--X3-13--17-15-13--|
G|---------------------------------------------------------------------------------|
D|---------------------------------------------------------------------------------|
A|---------------------------------------------------------------------------------|
E|---------------------------------------------------------------------------------|

e|--------------------------------------|------------------------------------|
B|--------------10----------------------|--------10\12-10--------------------|
G|----12-11-12----12-11-9---------------|---12-11--------12-11-9-------------|
D|--------------------------------------|------------------------------------|
A|--------------------------------------|------------------------------------|
E|--------------------------------------|------------------------------------|


************************************

| /   slide up
| \   slide down
| h   hammer-on
| p   pull-off
| ~   vibrato
| +   harmonic
| x   Mute note
| b   Bend
| pb  Pre-bend
| br  Bend release
| pbr Pre-bend release
| brb Bend release bend

************************************

DO NOT COPY ANY CONTENT FROM THIS WEBSITE!! Read more

please share with your friends :)
Your play lists will be visible here once you (login/register)

COMMENTS (0)

Add a comment / Correction to this song

Speed: 60
Artists by Index or
A
B
C
D
E
F
G
H
I
J
K
L
M
N
O
P
Q
R
S
T
U
V
W
X
Y
Z
©2010 to present chordslanka.lk all rights reserved. Administrator - Shalin Jayasuriya +94712183906