Saduda Awadiyen (Tabs) Chords

by Amarasiri Peiris
Beat: 4/4
Key: G
Contributor: nuwanmw1988 - (View All Contributions)
Views: 924
Login / Register to create play lists
Dear visitors, please note that some of the Youtube channels
that we index are currently closed, therefore will not be available for playback.
Select font size:
[Intro]
---------------------------------
---------------------------------
---------------------------------
--0-000-2--2-2-2--4-444-2-2-0----
------------------------------2--
--------------------------------- play this two for times

---------------------------------
---------------------------------
----4-5-7--7p5-4-----------------
--5--------------5---------------
---------------------------------
---------------------------------

---2h3-2-------------------------
---------5------------------3-5--
-4----------5-4-------2-4-5------
----------------5-4-5------------
---------------------------------
---------------------------------

-8p7-----------------------------
-----10-8-10--8p7----------------
-----------------9-7-------------
---------------------------------
---------------------------------
---------------------------------

---------------------------------
---7h8-7-------------------------
-7-------9-7------7-9-7-6-7------
-------------9-10----------------
---------------------------------
---------------------------------

again
---------------------------------
---------------------------------
---------------------------------
--0-000-2--2-2-2--4-444-2-2-0----
------------------------------2--
--------------------------------- play this two for time
[Intro]
---------------------------------
---------------------------------
---------------------------------
--0-000-2--2-2-2--4-444-2-2-0----
------------------------------2--
--------------------------------- play this two for times

---------------------------------
---------------------------------
----4-5-7--7p5-4-----------------
--5--------------5---------------
---------------------------------
---------------------------------

---2h3-2-------------------------
---------5------------------3-5--
-4----------5-4-------2-4-5------
----------------5-4-5------------
---------------------------------
---------------------------------

-8p7-----------------------------
-----10-8-10--8p7----------------
-----------------9-7-------------
---------------------------------
---------------------------------
---------------------------------

---------------------------------
---7h8-7-------------------------
-7-------9-7------7-9-7-6-7------
-------------9-10----------------
---------------------------------
---------------------------------

again
---------------------------------
---------------------------------
---------------------------------
--0-000-2--2-2-2--4-444-2-2-0----
------------------------------2--
--------------------------------- play this two for time
[Chorus]
--------------------------------------
sanduda awadiyen tharuda awadiyen
me nishanthaye
oba langa nathi thawa dinak gewee yay
thaniwuna wasanthaye//

[Verse 1]
--------------------------------------
seethala athuruni mihiriya laya matha
kodakemi biguruni madhu purawa
unusuma disune na netha maneka
oba langa nathiwama ada ma thaniwama

[Verse 2]
--------------------------------------
pahan nodalwena obe palpatha thula
nidimatha ada nethu piya sanaha
magema kandulak me pini bindu lesa
obe kawluwa langa pipi mal pethi matha

sanduda awadiyen....

DO NOT COPY ANY CONTENT FROM THIS WEBSITE!! Read more

please share with your friends :)
Your play lists will be visible here once you (login/register)

COMMENTS (0)

Add a comment / Correction to this song

Speed: 60
Artists by Index or
A
B
C
D
E
F
G
H
I
J
K
L
M
N
O
P
Q
R
S
T
U
V
W
X
Y
Z
©2010 to present chordslanka.lk all rights reserved. Administrator - Shalin Jayasuriya +94712183906