Wala Athula Siri Yahane 2 (Tabs) Chords

by Amarasiri Peiris
Beat: 3/4
Key: Eb
Contributor: W. Kevin Prout - (View All Contributions)
Views: 682
Login / Register to create play lists
Dear visitors, please note that some of the Youtube channels
that we index are currently closed, therefore will not be available for playback.
Select font size:
[Intro/Inter]
 |  Eb |  -  |  Fm |  -  |              Wala athula siri yahane unusum
 |  Bb7|  -  |  Eb |  -  |              Hiru kedi porawa
 |  Bb |  -  |  Eb |  -  |              Indrachapa kumaraya nida watenawa
 |  -  |  -  |		                Mal sugandayen nalawena 
                                        Latha madulle lagagena
[Chorus]                                Raan raan siyothun gee sindu kiyanawa
 |  Eb |  Cm |  Fm |  Ab |
 |  Eb |  -  |  Cm |  Eb |
 |  Bb |  C7 |  Ab |  Fm |              Jeewithee wage mumunana adaraya wage
 |  Bb |  Bb7|  Eb |  -  |              Dilihena diya tharanga
[|  -  |  -  |Bit                       Pokurak eliyen nidiyanawa
 

 [Verse]                                Nodaruwaku athin boda una
 |  Eb |  C7 |  Fm |  Eb |              Sithuwamak lesin sundara
 |  Ab |  -  |  Bb7|  Eb |              Pata raanakin diya matha rata wiyanawa
 |  Bb | Daug|  D7 |  Eb |
 |  Fm |  -  |  Eb |  -  |
                                        Kiri wadi natana goyamaka
                                        Meedumen watee pini kata randamak
                                        Lesin polawata ranin delenawa
                                        Hetak gana yamak nodakina hetak
                                        Thibeday nosithana kenek
                                        Kenek madu withak thola aga thawara gannawa


e|-3h4p3----3----------3h4p3----3---------4h6p4-3-4----3-----4h6p4-3-4----3------------|
B|-------6----4-6------------6----4-6----------------6---4--------------6---4----------|
G|-----------------5-------------------5-----------------------------------------------|
D|-------------------------------------------------------------------------------------|
A|-------------------------------------------------------------------------------------|
E|-------------------------------------------------------------------------------------|

e|---------------------------------------3-3--4--3---3-3--4--3---1-1--3--1--1-1--3--1--|
B|----------------------------0-1-2-3----4-4--6--4---4-4--6--4---3-3--4--3--3-3--4--3--|
G|------------------0-1-2-3-4----------------------------------------------------------|
D|----------0-1-2-3--------------------------------------------------------------------|
A|-1--2-3-4----------------------------------------------------------------------------|
E|-------------------------------------------------------------------------------------|

e|----------------------------3-2-3---6-5-6--------------------------------------------|
B|----------------------------4-3-4---8-7-8--------------------------------------------|
G|--3-3--3/5--3--0--1-2-3--------------------------------------------------------------|
D|-------------------------------------------------------------------------------------|
A|-------------------------------------------------------------------------------------|
E|-------------------------------------------------------------------------------------|


--|.|--------------------------------|.|--
Here are the letters/symbols most often used at tablature:
      h - hammer on 
      p - pull off 
      b - bend string up
      r - release bend
      / - slide up
      \ - slide down
      v - vibrato (sometimes written as ~)
      t - right hand tap
      x - play 'note' with heavy damping
--|.|--------------------------------|.|--
Feel free to edit it guys, I'm sure there might be thousands errors. 
And don't forget to feed us back with what you got... Kevin
--|.|--------------------------------|.|--
Chords arangement by: 		Surain D
Published\aranged by:		Kevin Prout	
kevprout@gmail.com

DO NOT COPY ANY CONTENT FROM THIS WEBSITE!! Read more

please share with your friends :)
Your play lists will be visible here once you (login/register)

COMMENTS (0)

Add a comment / Correction to this song

Speed: 60
Artists by Index or
A
B
C
D
E
F
G
H
I
J
K
L
M
N
O
P
Q
R
S
T
U
V
W
X
Y
Z
©2010 to present chordslanka.lk all rights reserved. Administrator - Shalin Jayasuriya +94712183906