Malak Une Ai Numba Mata (Tabs) Chords

by Amarasiri Peiris
Beat: 3/4
Key: A
Contributor: Shalin Jayasuriya - (View All Contributions)
Views: 7222
Login / Register to create play lists
Dear visitors, please note that some of the Youtube channels
that we index are currently closed, therefore will not be available for playback.
Select font size:
 
================
INTRO TABS
================  
    A

E|--5-----7-----8-----9-----10------9-----
B|----------------------------------------
G|--6-----7-----8-----9-----11------9-----
D|----------------------------------------
A|----------------------------------------
E|----------------------------------------

                       E
    Slide
E|--7\-----9-----8-----7----
B|--------------------------
G|--7\-----9-----8-----7----
D|--------------------------
A|--------------------------
E|--------------------------
                      D           E                  A
                                  Slide
E|--7-----4-----3-----2-----2-----4\-----7-----4-----5----
B|--------------------------------------------------------
G|--7-----4-----3-----2-----2-----4\-----7-----4-----6----
D|--------------------------------------------------------
A|--------------------------------------------------------
E|--------------------------------------------------------
					
E|-----------------------------------
B|-----------------------------------
G|--------2--------------------------
D|--2--4-----4--2--------2-----------
A|-----------------4--5-----4--2--0--
E|-----------------------------------				

[Intro]
--------------------------------
| A  | -  | -  | E  |
| -  | D  | E  | A  |
| -  | -  |

[Chorus]
--------------------------------
A          F#m
Malak wune    ai numba mata
D   A       Bm      A
Jiwithayata suwanda salana
C#m           A    E       A
 Enamudu sipa gannata thahanam
D           Bm
 Wilak wune ai numba mata
C#m          D
 Jiwithayata sisila isina
A            E            A
 Diya dothak bonnata thahanam

[Inter]
--------------------------------
| - | A   | -  | D  |
| - | Bm  | D  | A  |
| - |

[Verse 1]
--------------------------------
A          F#m
Pahan tharakawak se
D   Bm      A
Jiwithayata maga kiiwada
E       D
E eliyen mahada pahan
A    E      A
Dalwanu kelesin

[Verse 2]
--------------------------------
A           F#m
Sahan geethikawak se
D   Bm    A
Jiwithaye gini niwwada
E       D
E geeye sonduru wadan
A     E      A
Mumunanu kelesin

=======================
Chords in Bars
=======================
[Intro]
--------------------------------
| A | - | - | E |
| - | D | E | A |
| - | - |


[Chorus]
--------------------------------
| A | - | F#m | - |
| D | A | Bm  | A |
|C#m| - | A   | E |
| A | - | -   | D |
| - | Bm| -   | C#m|
| - | D | -   | A  |
| - | E | -   | A  |
| - |

[Inter]
--------------------------------
| - | A  | - | D |
| - | Bm | D | A |
| - |

[Verse 1 & 2]
--------------------------------
| A | - | F#m | - |
| D |Bm | A   | - |
| E | - | D   | - |
| A | E | A   | - |
| - |

DO NOT COPY ANY CONTENT FROM THIS WEBSITE!! Read more

please share with your friends :)
Your play lists will be visible here once you (login/register)

COMMENTS (0)

Add a comment / Correction to this song

Artists by Index or
A
B
C
D
E
F
G
H
I
J
K
L
M
N
O
P
Q
R
S
T
U
V
W
X
Y
Z
©2010 to present chordslanka.lk all rights reserved. Administrator - Shalin Jayasuriya +94712183906