Oya Nisa Handala 2 (Tabs) Chords

by Roshan Fernando
Beat: 4/4
Key: Am
Contributor: Pulith Widana - (View All Contributions)
Views: 927
Login / Register to create play lists
Dear visitors, please note that some of the Youtube channels
that we index are currently closed, therefore will not be available for playback.
Select font size:
==========================================
Guitar Tabs by Shalin Jayasuriya

(/) Slide Up  (\) Slide Down  
(h) Hammer On  (p) Pull Off  
(b) Bend (r) Release (v) Vibrato

==========================================
[Intro/Inter]
E|-------------------------
B|--------------5--5\6--5--
G|-----------5-------------
D|--7--7--7----------------
A|-------------------------
E|-------------------------


E|-------------------------
B|-------------------------
G|-----------4--7--7\9--7--
D|--6--6--6----------------
A|-------------------------
E|-------------------------


E|----------------------------------------
B|----------------------------------------
G|--7--7--7--9--9\10--9--7--5--5h7--5--4--
D|----------------------------------------
A|----------------------------------------
E|----------------------------------------
						

[Intro]
----------------------------------------
| Am  | E   | Dm  | E7   |
| Am  | E   | Dm  | C    |
| G   | E   | E7  |

[Chorus]
----------------------------------------
Am            F
Oya Nisa Handala
Am             F
Mage Asuth Riduna
G              Em        
Tharaha Wela - Haragiyada
Dm       Am   Dm   Em    Am
Paluwe Unne - Wedana Danune

[Inter]
----------------------------------------
| Am  | E   | Dm  | C   |
| G   | E   | -   |

[Verse 1]
----------------------------------------
Am          C        Am      Dm
Sihi Karala Oba Gena Ma Handala
G             Em             Am
Thawa Mata Na Sanasillak Labila
Am           Dm              G
Pema Bindala Oba Giya Da Indala
Em         Dm       Am   Dm Em    Am
Thaniwi La Inne Samada - Inne Samada

[Verse 1]
----------------------------------------
Am          C         Am      Dm
Senehasa Ma Mada Sulangak Karala
G         Em               Am
Pa Keruwa Ena Lesa Oba Soyala
Am         Dm            G
Susumak We E Sulange Ethila
Em       Dm         Am   Dm  Em    Am
Enumanwi Ma Ha Bandila - Ma Ha Bandila

[End]
----------------------------------------
| Am  | E   | Am  | E   | ...

DO NOT COPY ANY CONTENT FROM THIS WEBSITE!! Read more

please share with your friends :)
Your play lists will be visible here once you (login/register)

COMMENTS (0)

Add a comment / Correction to this song

Speed: 60
Artists by Index or
A
B
C
D
E
F
G
H
I
J
K
L
M
N
O
P
Q
R
S
T
U
V
W
X
Y
Z
©2010 to present chordslanka.lk all rights reserved. Administrator - Shalin Jayasuriya +94712183906