Liyathambara 3 (Tabs) Chords

by Athma Liyanage
Beat: 4/4
Key: Dm
Contributor: W. Kevin Prout - (View All Contributions)
Views: 1408
Login / Register to create play lists
Dear visitors, please note that some of the Youtube channels
that we index are currently closed, therefore will not be available for playback.
Select font size:
[Intro]
 |  Dm |  -  |  -  |  -  |     Liyathambara mudu kusumaki aa
 |  C  |  -  |  -  |  -  |     Thausangee dahanee sama bidina
 |  Dm |  -  |  -  |  -  |     Nee loke jeewe ayai //
 |  -  |  -  |  -  |  -  |
 |  C  |  -  |  -  |  -  |
 |  Dm |  -  |


[Chorus]  *
 |  Dm |  -  |  F  |  -  |     Mayawa mayawa lowa rawatana
 |  -  |  -  |  C  |  -  |     Sihinayaki sihinayaki adure pawena
 |  -  |  -  |  Bb |  -  |     Weenawe thath nagana mudu sware ayamai
 |  -  |  -  |  Dm |  -  |     Maa hadata rasa genena madu with ayai
 |  C  |  -  |  -  |  -  |
 |  Dm |  -  |  -  |  -  |
 |  C  |  -  |  -  |  -  |     
 |  Dm |  -  |		       Liyathmbara...


[Inter]
 |  Dm |  -  |  C  |  -  |     Miriguwaki miriguwaki apa rawatana
 |  Dm |  -  |  F  |  -  |     Dura aatha sithijayki ima nopenena 
 |  -  |  -  |  C  |  -  |     Nil nayana bigu kalaki neth saraya sumudui
 |  G  |  -  |  Dm |  -  |     Mage jeewe maru kathre diya binda ayai
 |  Dm |  -  |  F  |  -  |
 |  C  |  -  |  DM |  -  |

[Verse]
 |  Dm |  -  |  F  |  -  |
 |  Dm |  -  |  C  |  -  |
 |  -  |  -  |  -  |  -  |
 |  Bb |  -  |  Dm |  -  |
 |  Dm |  -  |  -  |  -  |
 |  -  |  -  |  C  |  -  |
 |  -  |  -  |  -  |  -  |
 |  Bb |  -  |

[Intro]
e|---------------------------------------------------------------------------------|
B|---------------------------------------------------------------------------------|
G|---------------------------------------------------------------------------------|
D|----0-----------0-2-0----------0-----------0-2-0-----------------0-2-0--------0--|
A|-0--------0--3--------3--0--0--------0---3-------3--0--3----0--3--------3--0-----|
E|---------------------------------------------------------------------------------|

[Inter]
e|-----10-----12h10---------10--12--13--13-13-12--12-12--13--12--10----------------|
B|--10--------------13---13--------------------------------------------------------|
G|---------------------------------------------------------------------------------|
D|---------------------------------------------------------------------------------|
A|---------------------------------------------------------------------------------|
E|---------------------------------------------------------------------------------|


e|-1--1---1--3--5--3--3---------3--7--3--------------------------------------------|
B|-3--3---3--5--6--5--1-----5------------5--3---3----------------------------------|
G|-----------------------5--------------------5------------------------------------|
D|---------------------------------------------------------------------------------|
A|---------------------------------------------------------------------------------|
E|---------------------------------------------------------------------------------|

Lead (Dist)
e|---------------------------------------------------------------------------------|
B|-------------------5--6-5--6/8-8h10-8h10--8--6h8-6h8-6-8-6---5-------------------|
G|--------5--7--5--7----------------------------------------------7--5--7-5--------|
D|-5/--7--------------------------------------------------------------------7------|
A|---------------------------------------------------------------------------------|
E|---------------------------------------------------------------------------------|


--|.|--------------------------------|.|--
Here are the letters/symbols most often used at tablature:
      h - hammer on 
      p - pull off 
      b - bend string up
      r - release bend
      / - slide up
      \ - slide down
      v - vibrato (sometimes written as ~)
      t - right hand tap
      x - play 'note' with heavy damping
--|.|--------------------------------|.|--

Chords arangement by: 		Surain D
Published\aranged by:		Kevin Prout	
kevprout@gmail.com

DO NOT COPY ANY CONTENT FROM THIS WEBSITE!! Read more

please share with your friends :)
Your play lists will be visible here once you (login/register)

COMMENTS (0)

Add a comment / Correction to this song

Speed: 60
Artists by Index or
A
B
C
D
E
F
G
H
I
J
K
L
M
N
O
P
Q
R
S
T
U
V
W
X
Y
Z
©2010 to present chordslanka.lk all rights reserved. Administrator - Shalin Jayasuriya +94712183906