Digu Dasa Dutuwama (Tabs) Chords

by Romesh and Lakshan
Beat: 4/4
Key: Am
Contributor: Shalin Jayasuriya - (View All Contributions)
Views: 1412
Login / Register to create play lists
Dear visitors, please note that some of the Youtube channels
that we index are currently closed, therefore will not be available for playback.
Select font size:
====================================
Guitar Tabs By Shalin Jayasuriya

(/) Slide Up  (\) Slide Down  
(h) Hammer On  (p) Pull Off  
(b) Bend (r) Release (v) Vibrato
===================================

[Intro]

E|---------------------------
B|---------------------------
G|-------------4-------------
D|-----5--5\7-----5--5--5\7--
A|--7------------------------
E|---------------------------

E|----------------
B|----------------
G|--4-------------
D|-----5--5--5\7--
A|----------------
E|----------------

E|------------------------------
B|------------------------------
G|--------4--5--7--5--7h7p4--4--
D|--7--7------------------------
A|------------------------------
E|------------------------------


[Intro]
----------------------------------------------
[| Am  | Em  | F  | G  |]

[Chorus]
----------------------------------------------
Am        Em        F        G
Digu dasa dutuwama, hengenawa pera sema
Am        Em         F           G
Unnu heti mage gawa, oya hithata amathakada
C          G           C         G        (G/F#/F)
Binda dama mage sihine, aida oba hengenne
F          Em           Dm        G       Em  Am
Mata denna mage sihine, langa inna pera waage

[Verse 1]
----------------------------------------------
Am      Em         Dm       G     Em  Am
Ra diwa hitha pura, awilila me ginna
          Em          F        G
tharu pawa handanawa, obata na therenne
C           G            C       G
Hithata ida himi nethida ahanawa hitha maage
F          Em           Dm         G       Em  Am
Mata denna mage sihine, langa inna pera waage

[Verse 2]
----------------------------------------------
Am       Em       Dm           G        Em  Am
Pera eda hamuwela windunu heti mudu pahase
         Em       F           G
Penenawa dakinawa, nihanda ra dura ahase
C           G              C       G
Durama misa langa nethida, ahanawa nethu maage
F        Em        Dm        G      Em  Am     
Kawadada oba enne, nethuwada hamuwanne

DO NOT COPY ANY CONTENT FROM THIS WEBSITE!! Read more

please share with your friends :)
Your play lists will be visible here once you (login/register)

COMMENTS (0)

Add a comment / Correction to this song

Speed: 60
Artists by Index or
A
B
C
D
E
F
G
H
I
J
K
L
M
N
O
P
Q
R
S
T
U
V
W
X
Y
Z
©2010 to present chordslanka.lk all rights reserved. Administrator - Shalin Jayasuriya +94712183906