Sinasenna Ba Ne (Tabs) Chords

by Romesh and Lakshan
Beat: 4/4
Key: Dm
Contributor: Shalin Jayasuriya - (View All Contributions)
Views: 1285
Login / Register to create play lists
Dear visitors, please note that some of the Youtube channels
that we index are currently closed, therefore will not be available for playback.
Select font size:
=======================================
Guitar Tabs by Shalin Jayasuriya

(/) Slide Up  (\) Slide Down  
(h) Hammer On (p) Pull Off  
(b) Bend (r) Release (v) Vibrato
=======================================

[Intro]

E|------------------------------5--6--6\8--8--6--5-----5h6p5-----
B|----------------5--6--6\8--8----------------------8---------6--
G|--5--5\7--7--7-------------------------------------------------
D|---------------------------------------------------------------
A|---------------------------------------------------------------
E|---------------------------------------------------------------

E|-----------------------
B|-----5--6--6\10--8--8--
G|--7--------------------
D|-----------------------
A|-----------------------
E|-----------------------
					
E|--5\6--5--5\10--
B|----------------
G|----------------
D|----------------
A|----------------
E|----------------                


[Intro]
--------------------------------------
[|Dm  |Gm  |C   |F  | 
 |Bb  |A   |Dm  |-  |]

[Pre Chorus]
--------------------------------------
Dm                   A7       Dm
Hengum math kala inura dase maya
                     Asus4      Dm
Nagu mal sina hada pura suwanda deela
C             Gm
Igilii giyado sayuren eha
A          Bb       A7
Dura yanne hengenne mage hitha dawala

[Chorus]
--------------------------------------
  Dm      Gm    C          F
Sinasenna bane obe suwanda nane
  Bb        A       Dm
Kohedo ma dama igilune 
  Dm      Gm    C          F
Sinasenna bane obe suwanda nane
  Bb        Asus4   Dm
Kohedo ma dama igilune 

[Inter]
--------------------------------------
|Dm  |-  |A7  |-   | 
|F   |-  |Dm  |-   |
|F   |C  |-   |C7  |
|F   |C  |Dm  |-   | 

[Verse 2]
--------------------------------------
  F           C          C7
Nilwan gabehi sanda hangunase
 F            C         C7
Oba eida aaye dasa pena maanaye
Dm            A
Mala parawuna se nopipedo aaye
Dm                A
Hada randu sihine bondaweda maage
C          Bb        Gm          A
Hadawilama sanasanna duka mage niwaala

Sinasenna bane //

[Verse 2]
--------------------------------------
F              C        C7
Sansaara heene oba neda maage
F              C         C7
Me pem kathawe gini awililanane
Dm             A
Hamuwanna aaye peruman puranne
Dm                A
Gini dawena lokaye man thaniwelane
C          Bb           Gm       A        
Munagahuna thana thaama mama innawa


DO NOT COPY ANY CONTENT FROM THIS WEBSITE!! Read more

please share with your friends :)
Your play lists will be visible here once you (login/register)

COMMENTS (0)

Add a comment / Correction to this song

Artists by Index or
A
B
C
D
E
F
G
H
I
J
K
L
M
N
O
P
Q
R
S
T
U
V
W
X
Y
Z
©2010 to present chordslanka.lk all rights reserved. Administrator - Shalin Jayasuriya +94712183906