Ra Andure (Tabs) Chords

by Athma Liyanage
Beat: 4/4
Key: Em
Contributor: W. Kevin Prout - (View All Contributions)
Views: 1048
Login / Register to create play lists
Dear visitors, please note that some of the Youtube channels
that we index are currently closed, therefore will not be available for playback.
Select font size:
[Intro]
 |  Em |  -  |  -  |  -  |       Raa aduree sayure pawee	
 |  C  |  -  |  -  |  -  |       Aatha yawee aatha yawee
 |  Em |  -  |  -  |  -  |       Ho ho ho...
 

[Chorus]
 |  C  |  -  |  -  |  -  |       Daathe sawi habale radi
 |  A  |  -  |  -  |  -  |       Pawenne raa yamayee
 |  Em |  -  |  -  |  C  |       Dewiyani obe saranaya labee
 |  Em |  -  |  -  |  -  |       Pirawenne madiyai ape
 |  C  |  -  |  -  |  -  |
 |  Em |  -  |  -  |  -  |       

[Inter]
 |  Em |  -  |  D  |  -  |       Raa aduree...
 |  Em |  -  |  X  |  -  |


 [Verse]
[|  Em |  -  |  C  |  -  |       Weralee pale soduriya mage
 |  D  |  -  |  Em |  -  |]      Ayadinne pihitai obe
(Play Twice)                     Dewiyani obe saranaya labe
                                 Raka dewi jeewe ape



                                 Raa aduree...



                                Sulagee senee rudurui wage
                                Oruwee ruwal bida watee
                                Dewiyani obe saranaya labee  
                                Geniyanna goda bima wethee

Inter
e|--12-10-12--10----10-------------------------------------------------------------|
B|---------------12-----12-10-12--10----10--------12-11-----9----------------------|
G|-----------------------------------12----11-----------12-------------------------|
D|---------------------------------------------------------------------------------|
A|---------------------------------------------------------------------------------|
E|---------------------------------------------------------------------------------|


e|----------------12---------------------------------------------------------------|
B|------12-----12------------------------------------------------------------------|
G|-9-12-----12---------------------------------------------------------------------|
D|---------------------------------------------------------------------------------|
A|---------------------------------------------------------------------------------|
E|---------------------------------------------------------------------------------|



Chords arangement by: 		Surain D
Published\aranged by:		Kevin Prout	
kevprout@gmail.com

[Intro]
 |  Em |  -  |  -  |  -  |       Raa aduree sayure pawee	
 |  C  |  -  |  -  |  -  |       Aatha yawee aatha yawee
 |  Em |  -  |  -  |  -  |       Ho ho ho...
 

[Chorus]
 |  C  |  -  |  -  |  -  |       Daathe sawi habale radi
 |  A  |  -  |  -  |  -  |       Pawenne raa yamayee
 |  Em |  -  |  -  |  C  |       Dewiyani obe saranaya labee
 |  Em |  -  |  -  |  -  |       Pirawenne madiyai ape
 |  C  |  -  |  -  |  -  |
 |  Em |  -  |  -  |  -  |       

[Inter]
 |  Em |  -  |  D  |  -  |       Raa aduree...
 |  Em |  -  |  X  |  -  |


 [Verse]
[|  Em |  -  |  C  |  -  |       Weralee pale soduriya mage
 |  D  |  -  |  Em |  -  |]      Ayadinne pihitai obe
(Play Twice)                     Dewiyani obe saranaya labe
                                 Raka dewi jeewe ape



                                 Raa aduree...



                                Sulagee senee rudurui wage
                                Oruwee ruwal bida watee
                                Dewiyani obe saranaya labee  
                                Geniyanna goda bima wethee

Inter
e|--12-10-12--10----10-------------------------------------------------------------|
B|---------------12-----12-10-12--10----10--------12-11-----9----------------------|
G|-----------------------------------12----11-----------12-------------------------|
D|---------------------------------------------------------------------------------|
A|---------------------------------------------------------------------------------|
E|---------------------------------------------------------------------------------|


e|----------------12---------------------------------------------------------------|
B|------12-----12------------------------------------------------------------------|
G|-9-12-----12---------------------------------------------------------------------|
D|---------------------------------------------------------------------------------|
A|---------------------------------------------------------------------------------|
E|---------------------------------------------------------------------------------|



Chords arangement by: 		Surain D
Published\aranged by:		Kevin Prout	
kevprout@gmail.com
[Chorus]
--------------------------------------------------
Em      C  Em
Ho oo....
       C            A             Em
Ra andure sayure paawi, aeatha yaawi
C         Em
 aeatha yawi


[Inter]
--------------------------------------------------
Em | - | D | -
Em | - |

[Verse 1]
---------------------------------------------------
         Em  F            G              Em
Deatha sawi, habale rendi paawenne rayamaye
Em           F           G            D       Em
Dewiyani obe saranaya leabi hirawenne madiyai ape


[Verse 2]
---------------------------------------------------
         Em  F              G                  Em
Werale pele, sonduriya mage aayadinne pihitai obe
Em            F              G         D      Em
Dewiyane obe, saranaya leabi raka dewi jeewe ape


[Verse 3]
---------------------------------------------------
          Em   F             G                   Em
Sulange senehe napurui wage, oruwe ruwal binda wete
Em           F              G         D          Em
Dewiyane obe saranaya lebi, genayanna godabima wete


[Verse 4]
---------------------------------------------------
         Em   F            G                   Em
Sayure jale , semada mese, bili weido apa jeewithe
Em           F              G        D         Em
Dewiyane obe saranaya lebe, kisidaka sekayak nethe

DO NOT COPY ANY CONTENT FROM THIS WEBSITE!! Read more

please share with your friends :)
Your play lists will be visible here once you (login/register)

COMMENTS (0)

Add a comment / Correction to this song

Artists by Index or
A
B
C
D
E
F
G
H
I
J
K
L
M
N
O
P
Q
R
S
T
U
V
W
X
Y
Z
©2010 to present chordslanka.lk all rights reserved. Administrator - Shalin Jayasuriya +94712183906