Epa Kandulel Sala 2 (Tabs) Chords

by Athma Liyanage
Beat: 4/4
Key: Em
Contributor: W. Kevin Prout - (View All Contributions)
Views: 1796
Login / Register to create play lists
Dear visitors, please note that some of the Youtube channels
that we index are currently closed, therefore will not be available for playback.
Select font size:
[Intro]
 |  C |  -  |  Em  |  -  |      Epa kadulal sala   
 |  D  |  -  |  -  |  -  |      Hadannata obe netha
 |  -  |  -  |  -  |  -  |      Mal suwada gala
 |  Em |  -  |  -  |  -  |      Sipa gani obe muwa //
 |  C  |  -  |  -  |  -  |
 |  D  |  -  |  -  |  -  |
 |  -  |  -  |  -  |  -  |      Epa susuman sala
 |  Em |  -  |  -  |  -  |      Ridawanna obe hada
[|  Em |  G  |  -  |  Em |      Siyoth kala gee gaya 
 |  D  |  -  |  Em |  -  |]     Sathapawai obe sitha

 [Chorus]
 |  C  |  -  |  Em |  -  |      Epa kadulal...     
 |  D  |  -  |  Em |  -  |
 |  -  |  -  |  D  |  -  |      Adara hanguman gala
 |  -  |  -  |  Em |  -  |      Miriguwaka welenna epa
 |  -  |  -  |  D  |  -  |      Obe hada pudasunee
 |  -  |  -  |  Em |  -  |      Himi kumaru ena thuraa //
 |  -  |  -  |  -  |  -  |

[Verse]
 |  Em |  -  |  D  |  -  |      Epa kadulal...
 |  -  |  -  |  Em |  -  |
 |  -  |  -  |  -  |  -  |
 |  D  |  -  |  -  |  -  |
 |  Em |  -  |  -  |  -  |
 |  D  |  -  |  -  |  -  |
 |  Em |  -  |  D  |  -  |
 |  Em |  -  |  -  |  -  |

e|------12----10h12--10h12--10-----------------------------------------------------|
B|-12-------------------------------10---------------------------------------------|
G|------------------------------12------12--11-------------------------------------|
D|---------------------------------------------------------------------------------|
A|---------------------------------------------------------------------------------|
E|---------------------------------------------------------------------------------|

e|------14----12h14--12h14--12-------12--------------------------------------------|
B|-10----------------------------15------------------------------------------------|
G|---------------------------------------------------------------------------------|
D|---------------------------------------------------------------------------------|
A|---------------------------------------------------------------------------------|
E|---------------------------------------------------------------------------------|

e|-----------------------7--7--10--7--10-------------------------------------------|
B|-------7--8-8--8---10------------------10--7--7--10--7--10-7---------------------|
G|---9-9--------------------------------------------------------7--9---------------|
D|-9-------------------------------------------------------------------------------|
A|---------------------------------------------------------------------------------|
E|---------------------------------------------------------------------------------|

e|---------------------------------------------------------------------------------|
B|---------------------------------------------------------------------------------|
G|---------------------------------------------------------------------------------|
D|---------------------------------------------------------------------------------|
A|---------------------------------------------------------------------------------|
E|---------------------------------------------------------------------------------|


Chords arangement by: 		Surain D
Published\aranged by:		Kevin Prout	
kevprout@gmail.com

DO NOT COPY ANY CONTENT FROM THIS WEBSITE!! Read more

please share with your friends :)
Your play lists will be visible here once you (login/register)

COMMENTS (0)

Add a comment / Correction to this song

Speed: 60
Artists by Index or
A
B
C
D
E
F
G
H
I
J
K
L
M
N
O
P
Q
R
S
T
U
V
W
X
Y
Z
©2010 to present chordslanka.lk all rights reserved. Administrator - Shalin Jayasuriya +94712183906