Numbe Suwanda Pirunu (Tabs) Chords

by Sanath Nandasiri
Beat: 6/8
Key: D
Contributor: Shony Perera - (View All Contributions)
Views: 1612
Login / Register to create play lists
Dear visitors, please note that some of the Youtube channels
that we index are currently closed, therefore will not be available for playback.
Select font size:
=====================================
INTRO TABS
By Shalin Jayasuriya
=====================================
(/) Slide Up  (\) Slide Down  (h) Hammer On  
(p) Pull Off  (b) Bend (r) Release (v) Vibrato

    
E|-----------------------------------
B|-----------------------------------
G|-----------------------------------
D|--0--4--0--------------0-----------
A|-----------4--0--1--2-----2--0-----
E|-----------------------------------
  

E|--------------------------------
B|--------------------------------
G|--------------------------6--7--
D|--------------------5\--7--------
A|--4--0--4--7--4--7--------------
E|--------------------------------

    
E|--5--5--5--7--5-------------------------
B|-----------------7--5-------------------
G|-----------------------7--7\--9--9/--7--
D|----------------------------------------
A|----------------------------------------
E|----------------------------------------

E|--5--5--5--7--5-------------------------
B|-----------------7--5-----5\--7--7/--5--
G|-----------------------7----------------
D|----------------------------------------
A|----------------------------------------
E|----------------------------------------

E|-------------------------------------------------------------------
B|--5--5--5--7--5----------------------------------------------------
G|-----------------7--4--4--4\--9--9--7--9--9\--11--11--9--9--7------
D|-------------------------------------------------------------------
A|-------------------------------------------------------------------
E|-------------------------------------------------------------------


=====================================
INTRO TABS
By Shalin Jayasuriya
=====================================
(/) Slide Up  (\) Slide Down  (h) Hammer On  
(p) Pull Off  (b) Bend (r) Release (v) Vibrato

    
E|-----------------------------------
B|-----------------------------------
G|-----------------------------------
D|--0--4--0--------------0-----------
A|-----------4--0--1--2-----2--0-----
E|-----------------------------------
  

E|--------------------------------
B|--------------------------------
G|--------------------------6--7--
D|--------------------5\--7--------
A|--4--0--4--7--4--7--------------
E|--------------------------------

    
E|--5--5--5--7--5-------------------------
B|-----------------7--5-------------------
G|-----------------------7--7\--9--9/--7--
D|----------------------------------------
A|----------------------------------------
E|----------------------------------------

E|--5--5--5--7--5-------------------------
B|-----------------7--5-----5\--7--7/--5--
G|-----------------------7----------------
D|----------------------------------------
A|----------------------------------------
E|----------------------------------------

E|-------------------------------------------------------------------
B|--5--5--5--7--5----------------------------------------------------
G|-----------------7--4--4--4\--9--9--7--9--9\--11--11--9--9--7------
D|-------------------------------------------------------------------
A|-------------------------------------------------------------------
E|-------------------------------------------------------------------



[Adlib]
---------------------------------------------------------
| D | F#m | Bm  | D |
| A |  -  | A7  | D |

[Intro]
----------------------------------------------------------
| D | - |  Bm  |Em|
| Em| - | D/Em |D |
| D | - |   -  |Em|
| Em| D | D/Em |D |
| D | - |  Bm  |Em|
| Em| - | D/Em | D|

[Chorus]
-----------------------------------------------------------
D    Bm            D          Em
Nube suwada pirunu punchi kamare
      Bm          Em            D
Rathu rosa malaka pethi hali thiye
     Bm         D        Em
Mata napuru une ai dayawiye
   Bm            Em            D
Me kandulu bindu prathama premaye // 

[Verse 1]
------------------------------------------------------------
D                            Bm
Mage samaru pothe rosa pitu soya 
      G                   D
Muthu akuru peliyak liyu oya //
D                             Em
Sihiwatanayak lesin thawath thiye
    D          Em          D
Samanala piyapathakya jeewethe

[Verse 2]
------------------------------------------------------------
D                         Bm
Sitha duraka giya adare soya
      G                       D
Muthu kandulu binduwak gala giya // 

D                      Em
Samuganma wedanawaki lowe
    D         Em         D
Mey indrachapayakya jeewithe

DO NOT COPY ANY CONTENT FROM THIS WEBSITE!! Read more

please share with your friends :)
Your play lists will be visible here once you (login/register)

COMMENTS (0)

Add a comment / Correction to this song

Speed: 60
Artists by Index or
A
B
C
D
E
F
G
H
I
J
K
L
M
N
O
P
Q
R
S
T
U
V
W
X
Y
Z
©2010 to present chordslanka.lk all rights reserved. Administrator - Shalin Jayasuriya +94712183906