Pransa Yuwathiyan (Tabs) Chords

by Amal Perera
Beat: Swing
Key: A
Contributor: Kemantha - (View All Contributions)
Views: 1291
Login / Register to create play lists
Dear visitors, please note that some of the Youtube channels
that we index are currently closed, therefore will not be available for playback.
Select font size:
==========================================
Tabs by Shalin Jayasuriya
(/) Slide Up  (\) Slide Down  (h) Hammer On  
(p) Pull Off  (b) Bend (r) Release 
(v) Vibrato
==========================================
[Intro/Inter]
E|----3--3--2--3--5--3--------------------
B|--2-------------------6--5--6p5--3------
G|--2-------------------------------------
D|--2-------------------------------------
A|----------------------------------------
E|----------------------------------------

E|----3--3--2--3--5--3-----------3--3\--5-
B|--2-------------------6--5--6-----------
G|--2-------------------------------------
D|--2-------------------------------------
A|----------------------------------------
E|----------------------------------------


E|--10--9--10--9--10--
B|--------------------
G|--------------------
D|--------------------
A|--------------------
E|--------------------


E|--10--9--10--12--10--
B|---------------------
G|---------------------
D|---------------------
A|---------------------
E|---------------------


E|--13--12--10--13--12--10--13--12--10--13--12--10--
B|--------------------------------------------------
G|--------------------------------------------------
D|--------------------------------------------------
A|--------------------------------------------------
E|--------------------------------------------------


E|--9--10\12--
B|------------
G|------------
D|------------
A|------------
E|------------
==========================================
Tabs by Shalin Jayasuriya
(/) Slide Up  (\) Slide Down  (h) Hammer On  
(p) Pull Off  (b) Bend (r) Release 
(v) Vibrato
==========================================
[Intro/Inter]
E|----3--3--2--3--5--3--------------------
B|--2-------------------6--5--6p5--3------
G|--2-------------------------------------
D|--2-------------------------------------
A|----------------------------------------
E|----------------------------------------

E|----3--3--2--3--5--3-----------3--3\--5-
B|--2-------------------6--5--6-----------
G|--2-------------------------------------
D|--2-------------------------------------
A|----------------------------------------
E|----------------------------------------


E|--10--9--10--9--10--
B|--------------------
G|--------------------
D|--------------------
A|--------------------
E|--------------------


E|--10--9--10--12--10--
B|---------------------
G|---------------------
D|---------------------
A|---------------------
E|---------------------


E|--13--12--10--13--12--10--13--12--10--13--12--10--
B|--------------------------------------------------
G|--------------------------------------------------
D|--------------------------------------------------
A|--------------------------------------------------
E|--------------------------------------------------


E|--9--10\12--
B|------------
G|------------
D|------------
A|------------
E|------------

[Intro]
--------------------------------------
| A   | -  | Dm  | -  |
| A   | -  | Dm  | -  |
| Bb  | -  | Dm  | -  |
| Bb  | -  | Dm  | -  |
| Bb  | G  | A   | -  |

[Chorus]
--------------------------------------
Dm                  Gm       A
Idoraye nagara kone aipal seemawe
Gm           Dm
obawa pene...
A                 Dm
pransa yuwathiyan hade kona aran
A               Dm   
lilee mal suran meedumen wahan..
Bb                  A
maayaavee paayaavee pamaa vee..//

[1st Verse]
--------------------------------------
Dm                 Bb          
frank miti ganan.. europe indan..
A                       Dm
hamba karana mage karapitin
Bb                Dm
yanna enawa nam.. eida nethu piyan..//
Bb          A            Dm
pamaa novee thawath kal aran..

[2nd Verse]
--------------------------------------
Dm                   Bb          
rhaine ganga konin.. pem hasun aran..
A                     Dm
yanna enna mokakdoo hein
Bb                 Dm
kiyana nethu piyan ahanawada ithin..//
Bb           A           Dm
swetha warna tharuniye indan

[last Chorus]
--------------------------------------
Dm                  Gm        A
Idoraye nagara kone eiffel seemawe
Gm           Dm
obawa pene...
A                 Dm
pransa yuwathiyan hade kona aran
A               Dm   
lilee mal suran meedumen wahan..
Bb        Gm        A
maayaavee paayaavee pamaa vee..//

DO NOT COPY ANY CONTENT FROM THIS WEBSITE!! Read more

please share with your friends :)
Your play lists will be visible here once you (login/register)

COMMENTS (0)

Add a comment / Correction to this song

Speed: 60
Artists by Index or
A
B
C
D
E
F
G
H
I
J
K
L
M
N
O
P
Q
R
S
T
U
V
W
X
Y
Z
©2010 to present chordslanka.lk all rights reserved. Administrator - Shalin Jayasuriya +94712183906