Clementina (Tabs) Chords

by Shihan Mihiranga
Beat: 4/4
Key: A
Contributor: Rasitha Chandrasekara - (View All Contributions)
Views: 1564
Login / Register to create play lists
Dear visitors, please note that some of the Youtube channels
that we index are currently closed, therefore will not be available for playback.
Select font size:
[Interlude]
----------------------------------------------------------------
 A                               F#m
|------------------------------9-9\7-----F--9-9/10~-------------
|---------------------10-10/12-------7~--L----------------------
|--------------9-9/11--------------------U----------11----------
|--11\9----11~---------------------------T----------------------
|-------12-------------------------------E----------------------
|----------------------------------------!----------------------

 A                           E
|--------------------------9-9/10------F--10-10\7-7~------------
|-----------------------10--------12~--L------------------------
|---------------9/11-11----------------U------------------------
|----------9-11------------------------T------------------------
|--9/12-12-----------------------------E------------------------
|--------------------------------------!------------------------

      A                       E
|--F--12-14~-12---12-10-------12\10-----------------------------
|--L--------------------14-10-------12-12-10--------------------
|--U------------14--------------------------9-------------------
|--T------------------------------------------------------------
|--E------------------------------------------------------------
|--!------------------------------------------------------------

      A               F#m         E                    A
|--10-12\10-9-10\9----------------------------------------------
|------------------12-14\12-10-12\10-9-10\9---------------9-10--
|-------------------------------------------11-13\11-9-11-------
|---------------------------------------------------------------
|---------------------------------------------------------------
|---------------------------------------------------------------

[Intro]
------------------------------------
|A  | C#m   | F#m  | E     |
|A  | C#m   | F#m  | E     |
|A  | Dsus  |  A   | Dsus  |

[Chorus]
------------------------------------
  A      F#m    A
Sithin pathanna ma
   A  D         E
Langin hindinna ma
 D          E  Dm
Obe kiyanna ma
        A  Dm
Clementina
        A
Clementina

[Verse 1]
------------------------------------
  A      C#m  F#m
Nethin sinawa kin pura
  E     D     A
Bala hindinne ma
 A         F#m
Obe kathawakin mage
   Dm         A
Hengum kathakala
 A        C#m
Oben sada pathanne ma
   A      D     E
Langin hindinna ma
 D          E  Dm
Obe kiyanna ma
        A  Dm
Clementina
        A
Clementina

[Verse 2]
------------------------------------
  A    C#m  F#m
Magema wewi yei kiya
E       D    A
hithana inne ma
          F#m
Mage lowe mage hade
   Dm         A
hengum pelannepa
 A       C#m
Oben sada pathanne ma
   A      D     E
Langin hindinna ma
 D          E  Dm
Obe kiyanna ma
        A  Dm
Clementina
        A
Clementina

DO NOT COPY ANY CONTENT FROM THIS WEBSITE!! Read more

please share with your friends :)
Your play lists will be visible here once you (login/register)

COMMENTS (0)

Add a comment / Correction to this song

Artists by Index or
A
B
C
D
E
F
G
H
I
J
K
L
M
N
O
P
Q
R
S
T
U
V
W
X
Y
Z
©2010 to present chordslanka.lk all rights reserved. Administrator - Shalin Jayasuriya +94712183906