Ran Samanalayo(Tabs) Chords

by Sunil Edirisinghe
Beat: 4/4
Key: A
Contributor: nuwanmw1988 - (View All Contributions)
Views: 1591
Login / Register to create play lists
Dear visitors, please note that some of the Youtube channels
that we index are currently closed, therefore will not be available for playback.
Select font size:
1.Understanding the tab staff


2. Reading chords in guitar tab. E major Chord


3. Other Symbols Used in Guitar Tabs
 h = hammer on
 p = pull off
--------------------------------------------------------------------------

[Intro]
--------------------------------------------------------------------------
--------------------------------------------------------------------------
-----------------------------------------------------0-1-2----------------
-------------2-----------------------2----------0-2-4---------------------
--0-0--0--2-4-----4-2-0---0-0-0--2-4---------2-4--------------------------
--------------------------------------------------------------------------

--------------------------------------------------------------------------
--------------------------------------------------------------------------
-2--1h2---------1h2-2-2s4-------------------------------------------------
--------4----4-4----------------2-4-2-0-2-4--1h2-2--4-2-2-----------------
--------------------------------------------------------------------------
--------------------------------------------------------------------------

--------------------------------------------------------------------------
--------------------------------------------------------------------------
--------------------------------------------------------------------------
-2-4--2-4--2--4-4-4----4-4--4s9--------2-4--2-4--2--2-2-2---2-4--4h5off4--
--------------------------------------------------------------------------
--------------------------------------------------------------------------
[Inter]

-5--4h5---------4-5--5s7---------------4h5-4------------------------------
--------7---7-7------------5-7-5---5-7-------7-5-5------------------------
---------------------------------7----------------------------------------
--------------------------------------------------------------------------
--------------------------------------------------------------------------
--------------------------------------------------------------------------

--------------------------------------------------------------------------
-5-7--5-7--5--7-7--7-7--7-7--7s12----5-7-5-7--5--5-5--5-5--5-7--7h8off7---
--------------------------------------------------------------------------
--------------------------------------------------------------------------
--------------------------------------------------------------------------
--------------------------------------------------------------------------


[CHORUS]
--------------------------------------------------------------------------
A       F#m         A        F#m
Ran samanalayooo....Punchi Kakuliyooo....
Bm   E      A
Dedunne Nagilaa...//
A      C#m        Bm            
Meedum saluwee....Thurumal Uyanee...
F#m             Bm
Koi yannee piyambaa...

Ran Samanalayoo..
[VERSE1]
--------------------------------------------------------------------------
A              C#m    Bm      D       A
Pembara aala hithee...Gee nowedoo gayuwe...
A                C#m    Bm      D       A
Molakati baala wiyee....aa hurathal kothanee....
       Bm        A             Bm          A
Maw daathin Midunaadoo..Yawwanayee mathweedoo..
Ran samanalayoo...
[VERSE2]
--------------------------------------------------------------------------
A                C#m    Bm    D        A
Lada manamaala hithee...aadarayee suwande...
A                 C#m   Bm      D      A
Thawa noditeeda lowee...Jeewithayee arume...
        Bm       A                Bm      A
Mal yahanaa pathuwaadoo...aa yahannaa hamuwedo...

Ran samanalayoo...

DO NOT COPY ANY CONTENT FROM THIS WEBSITE!! Read more

please share with your friends :)
Your play lists will be visible here once you (login/register)

COMMENTS (0)

Add a comment / Correction to this song

Speed: 60
Artists by Index or
A
B
C
D
E
F
G
H
I
J
K
L
M
N
O
P
Q
R
S
T
U
V
W
X
Y
Z
©2010 to present chordslanka.lk all rights reserved. Administrator - Shalin Jayasuriya +94712183906