Isuru kodewwe (Tabs) Chords

by Jagath Wickramasinghe
Beat: 4/4
Key: F
Contributor: Vidula Randunu - (View All Contributions)
Views: 526
Login / Register to create play lists
Dear visitors, please note that some of the Youtube channels
that we index are currently closed, therefore will not be available for playback.
Select font size:
Tempo: ~90BPM

[Interlude Lead]
---------------------------------------------------------------
     E  E  S T T S E  S E  S    E  E  S T T S E  S E  S
E||--------------------------|--------------------------|
B||--------------------------|--------------------------|
G||--------------------------|--------------------------|
D||-----1--3-3-3-3-3--3-3--3-|-----1--4-4-4-4-4--4-4--4-|
A||--3-----------------------|--3-----------------------|
E||--------------------------|--------------------------|

  E  E  S T T S E  S E  S    S S S S S S S S T  T  S E  E
--------------------------|--------------------------------|
--------------------------|------1-------------------------|
--------0-0-0-0-0--0-0--0-|--0-1---3-1-0-1-3---------------|
-----1--------------------|------------------4p-3h-4-3--3--|
--3-----------------------|--------------------------------|
--------------------------|--------------------------------|


[Interlude Rythm]
--------------------------------------------------------------
Rythm
    (Fm)                          (F#)
     PM PM PM   PM   PM      PM PM PM   PM   PM
     E  E  Q    Q    Q       E  E  Q    Q    Q
E||--1--1--1----1----1----|--1--1--2----2----2----|
B||--1--1--1----1----1----|--1--1--2----2----2----|
G||--1--1--1----1----1----|--1--1--3----3----3----|
D||--3--3--3----3----3----|--3--3--4----4----4----|
A||--3--3--3----3----3----|--3--3--4----4----4----|
E||--1--1--1----1----1----|--1--1--2----2----2----|

            (Gm)         (G)   (Ab)  (Ebm)(Fm)
  PM PM PM   PM   PM      PM PM PM   PM   PM
  E E   Q    Q    Q       E  E  Q    Q    Q
--2--2--3----3----3----|--3--3--4---------1----|
--2--2--3----3----3----|--3--3--4----7----1----|
--3--3--3----3----3----|--4--4--5----8----1----|
--4--4--5----5----5----|--5--5--6----8----3----|
--4--4--5----5----5----|--5--5--6----6----3----|
--2--2--3----3----3----|--3--3--4---------1----|

[Interlude 2 Lead]
---------------------------------------------------------------
(this is played right after the first interlude
     E  E
E||-----------|
B||--------1--|
G||--2--3-----|
D||-----------|
A||-----------|
E||-----------|


Tempo: ~90BPM
[Interlude Lead]
---------------------------------------------------------------
     E  E  S T T S E  S E  S    E  E  S T T S E  S E  S
E||--------------------------|--------------------------|
B||--------------------------|--------------------------|
G||--------------------------|--------------------------|
D||-----1--3-3-3-3-3--3-3--3-|-----1--4-4-4-4-4--4-4--4-|
A||--3-----------------------|--3-----------------------|
E||--------------------------|--------------------------|

  E  E  S T T S E  S E  S    S S S S S S S S T  T  S E  E
--------------------------|--------------------------------|
--------------------------|------1-------------------------|
--------0-0-0-0-0--0-0--0-|--0-1---3-1-0-1-3---------------|
-----1--------------------|------------------4p-3h-4-3--3--|
--3-----------------------|--------------------------------|
--------------------------|--------------------------------|


[Interlude Rythm]
--------------------------------------------------------------
Rythm
    (Fm)                          (F#)
     PM PM PM   PM   PM      PM PM PM   PM   PM
     E  E  Q    Q    Q       E  E  Q    Q    Q
E||--1--1--1----1----1----|--1--1--2----2----2----|
B||--1--1--1----1----1----|--1--1--2----2----2----|
G||--1--1--1----1----1----|--1--1--3----3----3----|
D||--3--3--3----3----3----|--3--3--4----4----4----|
A||--3--3--3----3----3----|--3--3--4----4----4----|
E||--1--1--1----1----1----|--1--1--2----2----2----|

            (Gm)         (G)   (Ab)  (Ebm)(Fm)
  PM PM PM   PM   PM      PM PM PM   PM   PM
  E E   Q    Q    Q       E  E  Q    Q    Q
--2--2--3----3----3----|--3--3--4---------1----|
--2--2--3----3----3----|--3--3--4----7----1----|
--3--3--3----3----3----|--4--4--5----8----1----|
--4--4--5----5----5----|--5--5--6----8----3----|
--4--4--5----5----5----|--5--5--6----6----3----|
--2--2--3----3----3----|--3--3--4---------1----|

[Interlude 2 Lead]
---------------------------------------------------------------
(this is played right after the first interlude
     E  E
E||-----------|
B||--------1--|
G||--2--3-----|
D||-----------|
A||-----------|
E||-----------|
[Chorus]
-------------------------------------
Fm            F     F#
Isuru kodewwe paalu isawwe
Ab              Fm
Athithaye bandi pem sithuwam
F                 F#
Bonda karalannata ai oba sithuwe
Ab    Ebm      Ab     Fm
Makaa damaa desithaka satahan
[Verse 1]
-------------------------------------
F               Bb       F
Viyakee yannata sarasena mala daka
Eb       Eb7         F
hitha handuwa mulu lowata horen
C#               Eb
Samugena yannemi yalith noennata
F       Bb         F
maley suwanda gena malata horin
[Verse 2]
--------------------------------------
F                Bb       F
Yalidu pathannata pathum pelak natha
Eb       Eb7         F
hitha handuwa mulu lowata horen
C#                Eb
Samugena yannemi yalith noennata
F      Bb         F
obey suwanda gena obata horin
[Duration Legend]
---------------------------------------
W - whole
H - half
Q - quarter
E - 8th
S - 16th
T - 32nd
X - 64th
[Tablature Legend]
---------------------------------------
PM - Palm Mute
g - grace note
(n) - ghost note
> - accentuded note
h - hammer on
p - pull off
All the content provided are strictly for personal use and educational purposes only.
Please read our DMCA Policy to find out more.
All the lyrics provided on ChordsLankalk.com are the property of the respective artist,
authors and labels, they are intended strictly for educational purposes,
read,view and private study only. Commercial using, copying, redistributing
and printing is strictly prohibited.
Please note that all the chords provided on chordslankalk.com are our visitor's interpretation only.
If you like this song, please visit the relative YouTube Channels to support the artist.
please share with your friends :)
Speed: 60
Artists by Index or
A
B
C
D
E
F
G
H
I
J
K
L
M
N
O
P
Q
R
S
T
U
V
W
X
Y
Z
©2010 to present chordslanka.lk all rights reserved. Designer/Administrator - Shalin Jayasuriya