Pemwanthayin Se Sinasi (Tabs) Chords

by Jagath Wickramasinghe
Beat: 4/4
Key: Em
Contributor: W. Kevin Prout - (View All Contributions)
Views: 1584
Login / Register to create play lists
Dear visitors, please note that some of the Youtube channels
that we index are currently closed, therefore will not be available for playback.
Select font size:
e|---------7----------------------------------------------------------------------------|
B|---------------10v---8--7-----------------7--8---7------------------------------------|
G|--/9------------------------9----7----9-----------------------------------------------|
D|--------------------------------------------------------------------------------------|
A|--------------------------------------------------------------------------------------|
E|--------------------------------------------------------------------------------------|

e|----------------10----8---7-----------------------------------------------------------|
B|-----7-----10v----------------10---8---7-h-8-p-7--------------------------------------|
G|--7-----------------------------------------------9v----------------------------------|
D|--------------------------------------------------------------------------------------|
A|--------------------------------------------------------------------------------------|
E|--------------------------------------------------------------------------------------|

e|------------------------------------------------------------------------10----8----7--|
B|-----------------------8--7--8----8--7--8-----10--8--10---10--8--10-------------------|
G|-9--7--9----9--7--9-------------------------------------------------------------------|
D|--------------------------------------------------------------------------------------|
A|--------------------------------------------------------------------------------------|
E|--------------------------------------------------------------------------------------|

e|---------7----------------------------------------------------------------------------|
B|---------------10v---8--7-----------------7--8---7------------------------------------|
G|--/9------------------------9----7----9-----------------------------------------------|
D|--------------------------------------------------------------------------------------|
A|--------------------------------------------------------------------------------------|
E|--------------------------------------------------------------------------------------|

e|----------------10----8---7-----------------------------------------------------------|
B|-----7-----10v----------------10---8---7-h-8-p-7--------------------------------------|
G|--7-----------------------------------------------9v----------------------------------|
D|--------------------------------------------------------------------------------------|
A|--------------------------------------------------------------------------------------|
E|--------------------------------------------------------------------------------------|

--|.|--------------------------------|.|--

Here are the letters/symbols most often used at tablature:
      h - hammer on 
      p - pull off 
      b - bend string up
      r - release bend
      / - slide up
      \ - slide down
      v - vibrato (sometimes written as ~)
      t - right hand tap
      x - play 'note' with heavy damping
      * - Palm Mute note
      [] -Repeat Bar
      {} -Beat
--|.|--------------------------------|.|--

Feel free to edit it guys, I'm sure there might be thousands errors. 
And don't forget to feed us back with what you got... Kevin

--|.|--------------------------------|.|--

Published\aranged by:Kevin Prout	
kevprout@gmail.com
e|---------7----------------------------------------------------------------------------|
B|---------------10v---8--7-----------------7--8---7------------------------------------|
G|--/9------------------------9----7----9-----------------------------------------------|
D|--------------------------------------------------------------------------------------|
A|--------------------------------------------------------------------------------------|
E|--------------------------------------------------------------------------------------|

e|----------------10----8---7-----------------------------------------------------------|
B|-----7-----10v----------------10---8---7-h-8-p-7--------------------------------------|
G|--7-----------------------------------------------9v----------------------------------|
D|--------------------------------------------------------------------------------------|
A|--------------------------------------------------------------------------------------|
E|--------------------------------------------------------------------------------------|

e|------------------------------------------------------------------------10----8----7--|
B|-----------------------8--7--8----8--7--8-----10--8--10---10--8--10-------------------|
G|-9--7--9----9--7--9-------------------------------------------------------------------|
D|--------------------------------------------------------------------------------------|
A|--------------------------------------------------------------------------------------|
E|--------------------------------------------------------------------------------------|

e|---------7----------------------------------------------------------------------------|
B|---------------10v---8--7-----------------7--8---7------------------------------------|
G|--/9------------------------9----7----9-----------------------------------------------|
D|--------------------------------------------------------------------------------------|
A|--------------------------------------------------------------------------------------|
E|--------------------------------------------------------------------------------------|

e|----------------10----8---7-----------------------------------------------------------|
B|-----7-----10v----------------10---8---7-h-8-p-7--------------------------------------|
G|--7-----------------------------------------------9v----------------------------------|
D|--------------------------------------------------------------------------------------|
A|--------------------------------------------------------------------------------------|
E|--------------------------------------------------------------------------------------|

--|.|--------------------------------|.|--

Here are the letters/symbols most often used at tablature:
      h - hammer on 
      p - pull off 
      b - bend string up
      r - release bend
      / - slide up
      \ - slide down
      v - vibrato (sometimes written as ~)
      t - right hand tap
      x - play 'note' with heavy damping
      * - Palm Mute note
      [] -Repeat Bar
      {} -Beat
--|.|--------------------------------|.|--

Feel free to edit it guys, I'm sure there might be thousands errors. 
And don't forget to feed us back with what you got... Kevin

--|.|--------------------------------|.|--

Published\aranged by:Kevin Prout	
kevprout@gmail.com

[Intro/Inter]
-----------------------
|Em  |Am  |Em  |D   |
|-   |-   |-   |Em  |
|-   |G   |Am  |Em  |
|Em  |Am  |Em  |D   |
|-   |-   |-   |Em  |

[Chorus]
-----------------------
Em             D   Am
Pemwanthain se sinasee
D                Em
Hamuweela wenwee handa
Em   G    Am      Em
Aye ithin preme namin
D              Em
So gee gayanna ithin //

[Verse 1]
----------------------
D             Em
Mihirawiye ko obe
D              Em
Wadanin mawu aadare
Am            Bm   G
Bonda medumak se gala
D                Em
Dura aetha paawe giya

[Verse 2]
-----------------------
D               Em
Ra sihinayak se sitha
D                Em
Sanahee hidinnam daraa
Am             Bm  G
Me aadare nam obe
D               Em
Ae shapayakayi hange

DO NOT COPY ANY CONTENT FROM THIS WEBSITE!! Read more

please share with your friends :)
Your play lists will be visible here once you (login/register)

COMMENTS (0)

Add a comment / Correction to this song

Artists by Index or
A
B
C
D
E
F
G
H
I
J
K
L
M
N
O
P
Q
R
S
T
U
V
W
X
Y
Z
©2010 to present chordslanka.lk all rights reserved. Administrator - Shalin Jayasuriya +94712183906