Perawadanak Chords

by Sanuka Wickramasinghe
Beat: 4/4
Key: Ebm
Contributor: Shalin Jayasuriya - (View All Contributions)
Views: 2593
Login / Register to create play lists
Dear visitors, please note that some of the Youtube channels
that we index are currently closed, therefore will not be available for playback.
Select font size:
Guitar Tabs Ebm Version (No CAPO)
Stave 1:

E|-----------------------------------
B|-----------7--6--------------------
G|--------8--------8--6--5--6--5-----
D|-----8--------------------------8--
A|--6--------------------------------
E|-----------------------------------


Stave 2:

E|--------------------------
B|--------------7-----7--6--
G|-----------6-----6--------
D|--------4-----------------
A|--6--8--------------------
E|--------------------------



(Capo version, 
CAPO on the 6th fret, transpose Chords to Aminor)

[Intro]
------------------------------------
|Ebm       |Ab  |F#/F#maj7  |-     |
|Ebm       |Ab  |F#/F#maj7  |-     |
|Ebm       |Ab  |F#/F#maj7  |-     |
|Ebm       |Ab  |F#/F#maj7  |-     |
|Ab        |-   |F#         |-     |
|Ab        |-   |Ebsus2/Bb  |
|Eb5       |-   |Eb5/Ebm|

[Chorus]
------------------------------------
Ebm7    F#m6  F#add9   Ebm
Perawadanak   wee      mage kathawata
         Ab      C#     F#
Patuna liyannata heena ewa
Ab               Ebm
Pituwen pituwata gethu kathawata
B               Ab7sus4    Ebm
His pituwak ida thaba    giya

[Verse 1]
------------------------------------
Fm                Bbm9  Ebm7
Arutha bindi giya andarayaka rasa
               Ab      Ebm
Kimei kiya nodenena hinda
Ab                F#  
Thawath thiyenawa hithe pothe ida
Bsus2            Ab7      Ebm
Methek liyu kiwindiyama patha

[Verse 2]
------------------------------------
Fm            Bbm9    Ebm7
Pathu kathawe nimak dakinnata
               Ab      Ebm
upan bawe pina madi hinda
Ab                 C#(C#/Ebm/C#/F#)
Bala hindimi mathu bhawayaka
B                    Ab7   Ebm
Pasuwadana liyannata ethei kiya

DO NOT COPY ANY CONTENT FROM THIS WEBSITE!! Read more

please share with your friends :)
Your play lists will be visible here once you (login/register)

COMMENTS (0)

Add a comment / Correction to this song

Artists by Index or
A
B
C
D
E
F
G
H
I
J
K
L
M
N
O
P
Q
R
S
T
U
V
W
X
Y
Z
©2010 to present chordslanka.lk all rights reserved. Administrator - Shalin Jayasuriya +94712183906