Oba Dutu E Mul Dine ( Tabs) Chords

by Gypsies
Beat: 3/4
Key: F
Contributor: Navin Karunadasa - (View All Contributions)
Views: 4355
Login / Register to create play lists
Dear visitors, please note that some of the Youtube channels
that we index are currently closed, therefore will not be available for playback.
Select font size:
[Interlude]

(Chord Progression Marked)
-----------------------------------------------------------------------
     F         C    F            Bb     Eb       F          C  F		
e|---5--5---5--3~---5------5--8--6~-----6--6---6-5~--5--------|
B|---6----6---------6---6---------------8----8----------8-6-8~|
G|---5--------------5-------------------8---------------------|
D|--------------------------------------8---------------------|
A|------------------------------------------------------------|
E|------------------------------------------------------------|

[Lyrics/Chords]

(extracted from: http://www.chords-lanka.com/song_view.php?song_id=18)

------------------------------------------------------------------------

[Interlude]

(Chord Progression Marked)
-----------------------------------------------------------------------
     F         C    F            Bb     Eb       F          C  F		
e|---5--5---5--3~---5------5--8--6~-----6--6---6-5~--5--------|
B|---6----6---------6---6---------------8----8----------8-6-8~|
G|---5--------------5-------------------8---------------------|
D|--------------------------------------8---------------------|
A|------------------------------------------------------------|
E|------------------------------------------------------------|

[Lyrics/Chords]

------------------------------------------------------------------------


[Intro]
--------------------------------------
F  | C  | Bb  | Eb
Bb | C  | -   |

[Verse 1]
--------------------------------------
F          C
Oba dutu e mul dine
A           Dm
Siduwuu semade
Bb             C            F       C
Thawamath mage mathakayehi rende...
F             C      
Neth yuga maa desa yoma
A            Dm       
Mage miyulesiye
Bb         C            F  C
Kumak kiyannatada serasune

[Inter 1/2]
--------------------------------------
F  | C  | F  | Bb
Eb | F  | C  | F

[Verse 2]
---------------------------------------
F       C              A           Dm         
Kage kauruda kothenaka sitinawada oya
Bb           C          F  C    
Keleseda maa eya denaganne....
F         C              A          Dm   
Kawada koibadi yali hamu wewi dei kiya
Bb           C           F    C   
Penayaki maa sitha paaranne...

[Verse 3]
----------------------------------------
F             C       
Keti kota guwanata musukota
A            Dm     
Mage rasa hengum
Bb            C         F    C  
Oba wetha geeyakin ewannam....
F              C              A          Dm     
Mathu dinayaka mage denethata oba hamuwe nam
Bb            C          F                     
Edina newetha maa hinehennam

[End]
--------------------------------------
F   | C  | F  | Bb
Eb  | F  | C  | F
The tab is originally played on, what sounds like, 
a sax but it still sounds great when you play it on the guitar. 
This is my interpretation only(!) and some 

of you might find that it doesn't 
exactly sound like the orignal (apologies here :P). 

This tab is on the F major scale and is derived 
from the chords uploaded

by Shalin Jayasuirya 
(http://www.chords-lanka.com/song_view.php?song_id=18), 
to play on G major, just shift the tab by 2 semi-tones 
or play relative to a capo

on the 2nd fret. Enjoy! :)

DO NOT COPY ANY CONTENT FROM THIS WEBSITE!! Read more

please share with your friends :)
Your play lists will be visible here once you (login/register)

COMMENTS (0)

Add a comment / Correction to this song

Artists by Index or
A
B
C
D
E
F
G
H
I
J
K
L
M
N
O
P
Q
R
S
T
U
V
W
X
Y
Z
©2010 to present chordslanka.lk all rights reserved. Administrator - Shalin Jayasuriya +94712183906