Sheela Chords

by JayaSri
Beat: 4/4
Key: Am
Contributor: Nadish Jayasuriya - (View All Contributions)
Views: 1433
Login / Register to create play lists
Dear visitors, please note that some of the Youtube channels
that we index are currently closed, therefore will not be available for playback.
Select font size:
==============================================
(/) Slide Up  (\) Slide Down  (h) Hammer On  
(p) Pull Off  (b) Bend (r) Release 
(v) Vibrato
Tabs by Shalin Jayasuriya
==============================================
[Intro/Inter]
----------------------------------------------
  Am                     E
E|---------------------------
B|--3\5--3-------------------
G|----------5--5--4--2--2\4--
D|---------------------------
A|---------------------------
E|---------------------------

                         G
E|---------------7--8--8\10--
B|--------8--10--------------
G|--7--9---------------------
D|---------------------------
A|---------------------------
E|---------------------------
				

                    Am
E|--7--8h8p7-----7--8---
B|------------8--8--10--
G|----------------------
D|----------------------
A|----------------------
E|----------------------
				

Play twice above parts and then play 
the below 
   Am
E|-----------------
B|--8--6--5--------
G|-----------7--5--
D|-----------------
A|-----------------
E|-----------------

=============================================
(/) Slide Up  (\) Slide Down  (h) Hammer On  
(p) Pull Off  (b) Bend (r) Release 
(v) Vibrato
Tabs by Shalin Jayasuriya
==============================================
[Intro/Inter]
----------------------------------------------
  Am                     E
E|---------------------------
B|--3\5--3-------------------
G|----------5--5--4--2--2\4--
D|---------------------------
A|---------------------------
E|---------------------------

                         G
E|---------------7--8--8\10--
B|--------8--10--------------
G|--7--9---------------------
D|---------------------------
A|---------------------------
E|---------------------------
				

                    Am
E|--7--8h8p7-----7--8---
B|------------8--8--10--
G|----------------------
D|----------------------
A|----------------------
E|----------------------
				

Play twice above parts and then play 
the below 
   Am
E|-----------------
B|--8--6--5--------
G|-----------7--5--
D|-----------------
A|-----------------
E|-----------------

[Adlib]
----------------------------------------
Am     Em
Sheela me geethayen wath dana ganna
G                E
mage hadawathe duka

[Intro]
----------------------------------------
[| Am | - | E | - |
 | G  | - | Am| - |]

[Verse 1]
----------------------------------------
C                      Em
 Balu balu hamathanama sihinen wage
C                 Em
 Sangaunu seyawan madese ade.....
F              Dm
 Sulange pawee   mage gee yawee...
F                E
 Asunoth enawado  sonduriye mage......

[Chorus]
----------------------------------------
            Am               Em
Ma hada seradila heii kohedo yanne mese
      G                  E
Sitha ridawanna epa hada bandi adare
     Am           Em
Thaniwila heii ma inne kese
G     E      Am
Evido mage kumari....

[Inter 1]
----------------------------------------
[| Am | - | E | - |
 | G  | - | Am| - |]

[Verse 2]
----------------------------------------
C                   Em
 Lowawama nawathila nihandai wage
C                 Em
 Thanikama paluwa dawati hade
F                 Dm
 Durakathanayakin oba amathawee
F                E
 Sithamin innemi thani lokaye

[Chorus]
----------------------------------------
            Am               Em
Ma hada seradila heii kohedo yanne mese
      G                  E
Sitha ridawanna epa hada bandi adare
     Am           Em
Thaniwila heii ma inne kese
G     E      Am
Evido mage kumari....

[Adlib]
----------------------------------------
Dm
Thaniwunu yahanata enawita
Am
Thawamath obage suwanda dane mata
Em
Sihinen obe ruwa dakagannawath
Am
Waram labeda mata
    Dm
Obe lassana as deke wenekeku
          Am
Hata ladi wenna epa
E                         Am
Ewido ewdido ewido mage kumari..

[Inter 2]
----------------------------------------
| Am | - | E | - |
| G  | - | Am| - |
| -  | - |  E| - |
| G  | - |Am | - |

[Chorus]
----------------------------------------
            Am               Em
Ma hada seradila heii kohedo yanne mese
      G                  E
Sitha ridawanna epa hada bandi adare
     Am           Em
Thaniwila heii ma inne kese
G     E      Am
Evido mage kumari....

[End]
--------------------------------------
Am                 Em
Sheela sheela heee sheela sheela ho.. 4x(repeat 4 times)
G     E       Am
Ewido  mage kumari...
All the content provided are strictly for personal use and educational purposes only.
Please read our DMCA Policy to find out more.
All the lyrics provided on ChordsLankalk.com are the property of the respective artist,
authors and labels, they are intended strictly for educational purposes,
read,view and private study only. Commercial using, copying, redistributing
and printing is strictly prohibited.
Please note that all the chords provided on chordslankalk.com are our visitor's interpretation only.
If you like this song, please visit the relative YouTube Channels to support the artist.
please share with your friends :)
Speed: 60
Artists by Index or
A
B
C
D
E
F
G
H
I
J
K
L
M
N
O
P
Q
R
S
T
U
V
W
X
Y
Z
©2010 to present chordslanka.lk all rights reserved. Designer/Administrator - Shalin Jayasuriya